ISO-10303-21;
HEADER;
/* Generated by software containing ST-Developer
 * from STEP Tools, Inc. (www.steptools.com) 
 */

FILE_DESCRIPTION(
/* description */ (''),
/* implementation_level */ '2;1');

FILE_NAME(
/* name */ 
'D:\\Invention\\RedesKVM\\RemdesKVM\\3D models\\usb-kvm case\\flag.stp',

/* time_stamp */ '2025-06-24T19:11:33+08:00',
/* author */ ('Toby'),
/* organization */ (''),
/* preprocessor_version */ 'ST-DEVELOPER v18.1',
/* originating_system */ 'Autodesk Inventor 2021',
/* authorisation */ '');

FILE_SCHEMA (('AUTOMOTIVE_DESIGN { 1 0 10303 214 3 1 1 }'));
ENDSEC;

DATA;
#10=MECHANICAL_DESIGN_GEOMETRIC_PRESENTATION_REPRESENTATION('',(#13),#457);
#11=SHAPE_REPRESENTATION_RELATIONSHIP('SRR','None',#464,#12);
#12=ADVANCED_BREP_SHAPE_REPRESENTATION('',(#14),#456);
#13=STYLED_ITEM('',(#473),#14);
#14=MANIFOLD_SOLID_BREP('Solid1',#271);
#15=PLANE('',#294);
#16=PLANE('',#295);
#17=PLANE('',#299);
#18=PLANE('',#300);
#19=PLANE('',#301);
#20=PLANE('',#302);
#21=PLANE('',#303);
#22=PLANE('',#304);
#23=PLANE('',#305);
#24=PLANE('',#306);
#25=PLANE('',#307);
#26=PLANE('',#308);
#27=FACE_OUTER_BOUND('',#41,.T.);
#28=FACE_OUTER_BOUND('',#42,.T.);
#29=FACE_OUTER_BOUND('',#43,.T.);
#30=FACE_OUTER_BOUND('',#44,.T.);
#31=FACE_OUTER_BOUND('',#45,.T.);
#32=FACE_OUTER_BOUND('',#46,.T.);
#33=FACE_OUTER_BOUND('',#47,.T.);
#34=FACE_OUTER_BOUND('',#48,.T.);
#35=FACE_OUTER_BOUND('',#49,.T.);
#36=FACE_OUTER_BOUND('',#50,.T.);
#37=FACE_OUTER_BOUND('',#51,.T.);
#38=FACE_OUTER_BOUND('',#52,.T.);
#39=FACE_OUTER_BOUND('',#53,.T.);
#40=FACE_OUTER_BOUND('',#54,.T.);
#41=EDGE_LOOP('',(#183,#184,#185,#186));
#42=EDGE_LOOP('',(#187,#188,#189,#190,#191,#192,#193,#194,#195,#196));
#43=EDGE_LOOP('',(#197,#198,#199,#200,#201,#202));
#44=EDGE_LOOP('',(#203,#204,#205,#206));
#45=EDGE_LOOP('',(#207,#208,#209,#210,#211,#212,#213,#214,#215,#216));
#46=EDGE_LOOP('',(#217,#218,#219,#220));
#47=EDGE_LOOP('',(#221,#222,#223,#224));
#48=EDGE_LOOP('',(#225,#226,#227,#228));
#49=EDGE_LOOP('',(#229,#230,#231,#232));
#50=EDGE_LOOP('',(#233,#234,#235,#236,#237,#238));
#51=EDGE_LOOP('',(#239,#240,#241,#242));
#52=EDGE_LOOP('',(#243,#244,#245,#246));
#53=EDGE_LOOP('',(#247,#248,#249,#250));
#54=EDGE_LOOP('',(#251,#252,#253,#254));
#55=LINE('',#385,#87);
#56=LINE('',#388,#88);
#57=LINE('',#391,#89);
#58=LINE('',#393,#90);
#59=LINE('',#395,#91);
#60=LINE('',#397,#92);
#61=LINE('',#399,#93);
#62=LINE('',#401,#94);
#63=LINE('',#403,#95);
#64=LINE('',#405,#96);
#65=LINE('',#406,#97);
#66=LINE('',#409,#98);
#67=LINE('',#413,#99);
#68=LINE('',#414,#100);
#69=LINE('',#417,#101);
#70=LINE('',#420,#102);
#71=LINE('',#423,#103);
#72=LINE('',#425,#104);
#73=LINE('',#427,#105);
#74=LINE('',#429,#106);
#75=LINE('',#431,#107);
#76=LINE('',#433,#108);
#77=LINE('',#435,#109);
#78=LINE('',#436,#110);
#79=LINE('',#438,#111);
#80=LINE('',#439,#112);
#81=LINE('',#441,#113);
#82=LINE('',#443,#114);
#83=LINE('',#444,#115);
#84=LINE('',#446,#116);
#85=LINE('',#448,#117);
#86=LINE('',#449,#118);
#87=VECTOR('',#315,10.);
#88=VECTOR('',#318,10.);
#89=VECTOR('',#321,10.);
#90=VECTOR('',#322,10.);
#91=VECTOR('',#323,10.);
#92=VECTOR('',#324,10.);
#93=VECTOR('',#325,10.);
#94=VECTOR('',#326,10.);
#95=VECTOR('',#327,10.);
#96=VECTOR('',#328,10.);
#97=VECTOR('',#329,10.);
#98=VECTOR('',#332,10.);
#99=VECTOR('',#335,10.);
#100=VECTOR('',#336,10.);
#101=VECTOR('',#339,10.);
#102=VECTOR('',#342,10.);
#103=VECTOR('',#345,10.);
#104=VECTOR('',#346,10.);
#105=VECTOR('',#347,10.);
#106=VECTOR('',#348,10.);
#107=VECTOR('',#349,10.);
#108=VECTOR('',#350,10.);
#109=VECTOR('',#351,10.);
#110=VECTOR('',#352,10.);
#111=VECTOR('',#355,10.);
#112=VECTOR('',#356,10.);
#113=VECTOR('',#359,10.);
#114=VECTOR('',#362,10.);
#115=VECTOR('',#363,10.);
#116=VECTOR('',#366,10.);
#117=VECTOR('',#369,10.);
#118=VECTOR('',#370,10.);
#119=CIRCLE('',#292,1.);
#120=CIRCLE('',#293,1.);
#121=CIRCLE('',#296,1.);
#122=CIRCLE('',#298,1.);
#123=VERTEX_POINT('',#381);
#124=VERTEX_POINT('',#382);
#125=VERTEX_POINT('',#384);
#126=VERTEX_POINT('',#386);
#127=VERTEX_POINT('',#390);
#128=VERTEX_POINT('',#392);
#129=VERTEX_POINT('',#394);
#130=VERTEX_POINT('',#396);
#131=VERTEX_POINT('',#398);
#132=VERTEX_POINT('',#400);
#133=VERTEX_POINT('',#402);
#134=VERTEX_POINT('',#404);
#135=VERTEX_POINT('',#408);
#136=VERTEX_POINT('',#410);
#137=VERTEX_POINT('',#412);
#138=VERTEX_POINT('',#416);
#139=VERTEX_POINT('',#418);
#140=VERTEX_POINT('',#422);
#141=VERTEX_POINT('',#424);
#142=VERTEX_POINT('',#426);
#143=VERTEX_POINT('',#428);
#144=VERTEX_POINT('',#430);
#145=VERTEX_POINT('',#432);
#146=VERTEX_POINT('',#434);
#147=EDGE_CURVE('',#123,#124,#119,.T.);
#148=EDGE_CURVE('',#124,#125,#55,.T.);
#149=EDGE_CURVE('',#125,#126,#120,.T.);
#150=EDGE_CURVE('',#126,#123,#56,.T.);
#151=EDGE_CURVE('',#127,#126,#57,.T.);
#152=EDGE_CURVE('',#128,#127,#58,.T.);
#153=EDGE_CURVE('',#129,#128,#59,.T.);
#154=EDGE_CURVE('',#130,#129,#60,.T.);
#155=EDGE_CURVE('',#130,#131,#61,.T.);
#156=EDGE_CURVE('',#132,#131,#62,.T.);
#157=EDGE_CURVE('',#132,#133,#63,.T.);
#158=EDGE_CURVE('',#134,#133,#64,.T.);
#159=EDGE_CURVE('',#134,#123,#65,.T.);
#160=EDGE_CURVE('',#135,#125,#66,.T.);
#161=EDGE_CURVE('',#136,#135,#121,.T.);
#162=EDGE_CURVE('',#137,#136,#67,.T.);
#163=EDGE_CURVE('',#127,#137,#68,.T.);
#164=EDGE_CURVE('',#135,#138,#69,.T.);
#165=EDGE_CURVE('',#138,#139,#122,.T.);
#166=EDGE_CURVE('',#139,#136,#70,.T.);
#167=EDGE_CURVE('',#140,#139,#71,.T.);
#168=EDGE_CURVE('',#141,#140,#72,.T.);
#169=EDGE_CURVE('',#142,#141,#73,.T.);
#170=EDGE_CURVE('',#143,#142,#74,.T.);
#171=EDGE_CURVE('',#143,#144,#75,.T.);
#172=EDGE_CURVE('',#145,#144,#76,.T.);
#173=EDGE_CURVE('',#145,#146,#77,.T.);
#174=EDGE_CURVE('',#137,#146,#78,.T.);
#175=EDGE_CURVE('',#129,#145,#79,.T.);
#176=EDGE_CURVE('',#144,#130,#80,.T.);
#177=EDGE_CURVE('',#146,#128,#81,.T.);
#178=EDGE_CURVE('',#142,#132,#82,.T.);
#179=EDGE_CURVE('',#131,#143,#83,.T.);
#180=EDGE_CURVE('',#133,#141,#84,.T.);
#181=EDGE_CURVE('',#140,#134,#85,.T.);
#182=EDGE_CURVE('',#124,#138,#86,.T.);
#183=ORIENTED_EDGE('',*,*,#147,.T.);
#184=ORIENTED_EDGE('',*,*,#148,.T.);
#185=ORIENTED_EDGE('',*,*,#149,.T.);
#186=ORIENTED_EDGE('',*,*,#150,.T.);
#187=ORIENTED_EDGE('',*,*,#150,.F.);
#188=ORIENTED_EDGE('',*,*,#151,.F.);
#189=ORIENTED_EDGE('',*,*,#152,.F.);
#190=ORIENTED_EDGE('',*,*,#153,.F.);
#191=ORIENTED_EDGE('',*,*,#154,.F.);
#192=ORIENTED_EDGE('',*,*,#155,.T.);
#193=ORIENTED_EDGE('',*,*,#156,.F.);
#194=ORIENTED_EDGE('',*,*,#157,.T.);
#195=ORIENTED_EDGE('',*,*,#158,.F.);
#196=ORIENTED_EDGE('',*,*,#159,.T.);
#197=ORIENTED_EDGE('',*,*,#149,.F.);
#198=ORIENTED_EDGE('',*,*,#160,.F.);
#199=ORIENTED_EDGE('',*,*,#161,.F.);
#200=ORIENTED_EDGE('',*,*,#162,.F.);
#201=ORIENTED_EDGE('',*,*,#163,.F.);
#202=ORIENTED_EDGE('',*,*,#151,.T.);
#203=ORIENTED_EDGE('',*,*,#161,.T.);
#204=ORIENTED_EDGE('',*,*,#164,.T.);
#205=ORIENTED_EDGE('',*,*,#165,.T.);
#206=ORIENTED_EDGE('',*,*,#166,.T.);
#207=ORIENTED_EDGE('',*,*,#166,.F.);
#208=ORIENTED_EDGE('',*,*,#167,.F.);
#209=ORIENTED_EDGE('',*,*,#168,.F.);
#210=ORIENTED_EDGE('',*,*,#169,.F.);
#211=ORIENTED_EDGE('',*,*,#170,.F.);
#212=ORIENTED_EDGE('',*,*,#171,.T.);
#213=ORIENTED_EDGE('',*,*,#172,.F.);
#214=ORIENTED_EDGE('',*,*,#173,.T.);
#215=ORIENTED_EDGE('',*,*,#174,.F.);
#216=ORIENTED_EDGE('',*,*,#162,.T.);
#217=ORIENTED_EDGE('',*,*,#154,.T.);
#218=ORIENTED_EDGE('',*,*,#175,.T.);
#219=ORIENTED_EDGE('',*,*,#172,.T.);
#220=ORIENTED_EDGE('',*,*,#176,.T.);
#221=ORIENTED_EDGE('',*,*,#175,.F.);
#222=ORIENTED_EDGE('',*,*,#153,.T.);
#223=ORIENTED_EDGE('',*,*,#177,.F.);
#224=ORIENTED_EDGE('',*,*,#173,.F.);
#225=ORIENTED_EDGE('',*,*,#170,.T.);
#226=ORIENTED_EDGE('',*,*,#178,.T.);
#227=ORIENTED_EDGE('',*,*,#156,.T.);
#228=ORIENTED_EDGE('',*,*,#179,.T.);
#229=ORIENTED_EDGE('',*,*,#178,.F.);
#230=ORIENTED_EDGE('',*,*,#169,.T.);
#231=ORIENTED_EDGE('',*,*,#180,.F.);
#232=ORIENTED_EDGE('',*,*,#157,.F.);
#233=ORIENTED_EDGE('',*,*,#147,.F.);
#234=ORIENTED_EDGE('',*,*,#159,.F.);
#235=ORIENTED_EDGE('',*,*,#181,.F.);
#236=ORIENTED_EDGE('',*,*,#167,.T.);
#237=ORIENTED_EDGE('',*,*,#165,.F.);
#238=ORIENTED_EDGE('',*,*,#182,.F.);
#239=ORIENTED_EDGE('',*,*,#148,.F.);
#240=ORIENTED_EDGE('',*,*,#182,.T.);
#241=ORIENTED_EDGE('',*,*,#164,.F.);
#242=ORIENTED_EDGE('',*,*,#160,.T.);
#243=ORIENTED_EDGE('',*,*,#163,.T.);
#244=ORIENTED_EDGE('',*,*,#174,.T.);
#245=ORIENTED_EDGE('',*,*,#177,.T.);
#246=ORIENTED_EDGE('',*,*,#152,.T.);
#247=ORIENTED_EDGE('',*,*,#181,.T.);
#248=ORIENTED_EDGE('',*,*,#158,.T.);
#249=ORIENTED_EDGE('',*,*,#180,.T.);
#250=ORIENTED_EDGE('',*,*,#168,.T.);
#251=ORIENTED_EDGE('',*,*,#176,.F.);
#252=ORIENTED_EDGE('',*,*,#171,.F.);
#253=ORIENTED_EDGE('',*,*,#179,.F.);
#254=ORIENTED_EDGE('',*,*,#155,.F.);
#255=CYLINDRICAL_SURFACE('',#291,1.);
#256=CYLINDRICAL_SURFACE('',#297,1.);
#257=ADVANCED_FACE('',(#27),#255,.T.);
#258=ADVANCED_FACE('',(#28),#15,.T.);
#259=ADVANCED_FACE('',(#29),#16,.T.);
#260=ADVANCED_FACE('',(#30),#256,.T.);
#261=ADVANCED_FACE('',(#31),#17,.T.);
#262=ADVANCED_FACE('',(#32),#18,.T.);
#263=ADVANCED_FACE('',(#33),#19,.T.);
#264=ADVANCED_FACE('',(#34),#20,.T.);
#265=ADVANCED_FACE('',(#35),#21,.T.);
#266=ADVANCED_FACE('',(#36),#22,.T.);
#267=ADVANCED_FACE('',(#37),#23,.T.);
#268=ADVANCED_FACE('',(#38),#24,.T.);
#269=ADVANCED_FACE('',(#39),#25,.T.);
#270=ADVANCED_FACE('',(#40),#26,.F.);
#271=CLOSED_SHELL('',(#257,#258,#259,#260,#261,#262,#263,#264,#265,#266,
#267,#268,#269,#270));
#272=DERIVED_UNIT_ELEMENT(#274,1.);
#273=DERIVED_UNIT_ELEMENT(#459,3.);
#274=(
MASS_UNIT()
NAMED_UNIT(*)
SI_UNIT($,.GRAM.)
);
#275=DERIVED_UNIT((#272,#273));
#276=MEASURE_REPRESENTATION_ITEM('density measure',
POSITIVE_RATIO_MEASURE(1.),#275);
#277=PROPERTY_DEFINITION_REPRESENTATION(#282,#279);
#278=PROPERTY_DEFINITION_REPRESENTATION(#283,#280);
#279=REPRESENTATION('material name',(#281),#456);
#280=REPRESENTATION('density',(#276),#456);
#281=DESCRIPTIVE_REPRESENTATION_ITEM('Generic','Generic');
#282=PROPERTY_DEFINITION('material property','material name',#466);
#283=PROPERTY_DEFINITION('material property','density of part',#466);
#284=DATE_TIME_ROLE('creation_date');
#285=APPLIED_DATE_AND_TIME_ASSIGNMENT(#286,#284,(#466));
#286=DATE_AND_TIME(#287,#288);
#287=CALENDAR_DATE(2025,24,6);
#288=LOCAL_TIME(0,0,0.,#289);
#289=COORDINATED_UNIVERSAL_TIME_OFFSET(0,0,.BEHIND.);
#290=AXIS2_PLACEMENT_3D('placement',#379,#309,#310);
#291=AXIS2_PLACEMENT_3D('',#380,#311,#312);
#292=AXIS2_PLACEMENT_3D('',#383,#313,#314);
#293=AXIS2_PLACEMENT_3D('',#387,#316,#317);
#294=AXIS2_PLACEMENT_3D('',#389,#319,#320);
#295=AXIS2_PLACEMENT_3D('',#407,#330,#331);
#296=AXIS2_PLACEMENT_3D('',#411,#333,#334);
#297=AXIS2_PLACEMENT_3D('',#415,#337,#338);
#298=AXIS2_PLACEMENT_3D('',#419,#340,#341);
#299=AXIS2_PLACEMENT_3D('',#421,#343,#344);
#300=AXIS2_PLACEMENT_3D('',#437,#353,#354);
#301=AXIS2_PLACEMENT_3D('',#440,#357,#358);
#302=AXIS2_PLACEMENT_3D('',#442,#360,#361);
#303=AXIS2_PLACEMENT_3D('',#445,#364,#365);
#304=AXIS2_PLACEMENT_3D('',#447,#367,#368);
#305=AXIS2_PLACEMENT_3D('',#450,#371,#372);
#306=AXIS2_PLACEMENT_3D('',#451,#373,#374);
#307=AXIS2_PLACEMENT_3D('',#452,#375,#376);
#308=AXIS2_PLACEMENT_3D('',#453,#377,#378);
#309=DIRECTION('axis',(0.,0.,1.));
#310=DIRECTION('refdir',(1.,0.,0.));
#311=DIRECTION('center_axis',(0.,1.,0.));
#312=DIRECTION('ref_axis',(0.707106781186548,0.,0.707106781186548));
#313=DIRECTION('center_axis',(0.,-1.,0.));
#314=DIRECTION('ref_axis',(0.707106781186548,0.,0.707106781186548));
#315=DIRECTION('',(0.,-1.,0.));
#316=DIRECTION('center_axis',(-1.33761810195802E-16,1.,0.));
#317=DIRECTION('ref_axis',(0.707106781186548,0.,0.707106781186548));
#318=DIRECTION('',(0.,1.,0.));
#319=DIRECTION('center_axis',(1.,0.,0.));
#320=DIRECTION('ref_axis',(0.,1.,0.));
#321=DIRECTION('',(0.,0.,1.));
#322=DIRECTION('',(0.,1.,0.));
#323=DIRECTION('',(0.,0.,1.));
#324=DIRECTION('',(0.,-0.707106781186548,0.707106781186547));
#325=DIRECTION('',(0.,1.,0.));
#326=DIRECTION('',(0.,-0.707106781186548,-0.707106781186548));
#327=DIRECTION('',(0.,0.,1.));
#328=DIRECTION('',(0.,1.,0.));
#329=DIRECTION('',(0.,0.,1.));
#330=DIRECTION('center_axis',(1.33761810195802E-16,-1.,0.));
#331=DIRECTION('ref_axis',(1.,1.33761810195802E-16,0.));
#332=DIRECTION('',(1.,1.33761810195802E-16,0.));
#333=DIRECTION('center_axis',(-1.33761810195802E-16,1.,0.));
#334=DIRECTION('ref_axis',(-0.707106781186548,-3.92523114670943E-16,0.707106781186548));
#335=DIRECTION('',(0.,0.,1.));
#336=DIRECTION('',(-1.,-1.33761810195802E-16,0.));
#337=DIRECTION('center_axis',(4.44089209850063E-16,-1.,0.));
#338=DIRECTION('ref_axis',(-0.707106781186548,-3.92523114670943E-16,0.707106781186548));
#339=DIRECTION('',(-4.44089209850063E-16,1.,0.));
#340=DIRECTION('center_axis',(0.,-1.,0.));
#341=DIRECTION('ref_axis',(-0.707106781186548,-3.92523114670943E-16,0.707106781186548));
#342=DIRECTION('',(4.44089209850063E-16,-1.,0.));
#343=DIRECTION('center_axis',(-1.,-4.44089209850063E-16,0.));
#344=DIRECTION('ref_axis',(4.44089209850063E-16,-1.,0.));
#345=DIRECTION('',(0.,0.,1.));
#346=DIRECTION('',(4.44089209850063E-16,-1.,0.));
#347=DIRECTION('',(0.,0.,1.));
#348=DIRECTION('',(-3.14018491736755E-16,0.707106781186548,0.707106781186548));
#349=DIRECTION('',(4.44089209850063E-16,-1.,0.));
#350=DIRECTION('',(-3.14018491736755E-16,0.707106781186548,-0.707106781186547));
#351=DIRECTION('',(0.,0.,1.));
#352=DIRECTION('',(4.44089209850063E-16,-1.,0.));
#353=DIRECTION('center_axis',(8.67018927988028E-17,-0.707106781186547,-0.707106781186548));
#354=DIRECTION('ref_axis',(-1.,0.,-1.22614992679485E-16));
#355=DIRECTION('',(-1.,-1.22614992679485E-16,0.));
#356=DIRECTION('',(1.,1.22614992679485E-16,0.));
#357=DIRECTION('center_axis',(1.22614992679485E-16,-1.,0.));
#358=DIRECTION('ref_axis',(1.,1.22614992679485E-16,0.));
#359=DIRECTION('',(1.,1.22614992679485E-16,0.));
#360=DIRECTION('center_axis',(0.,0.707106781186548,-0.707106781186548));
#361=DIRECTION('ref_axis',(-1.,0.,0.));
#362=DIRECTION('',(1.,0.,0.));
#363=DIRECTION('',(-1.,0.,0.));
#364=DIRECTION('center_axis',(0.,1.,0.));
#365=DIRECTION('ref_axis',(-1.,0.,0.));
#366=DIRECTION('',(-1.,0.,0.));
#367=DIRECTION('center_axis',(0.,1.,0.));
#368=DIRECTION('ref_axis',(-1.,0.,0.));
#369=DIRECTION('',(1.,0.,0.));
#370=DIRECTION('',(-1.,0.,0.));
#371=DIRECTION('center_axis',(0.,0.,1.));
#372=DIRECTION('ref_axis',(1.,0.,0.));
#373=DIRECTION('center_axis',(0.,0.,1.));
#374=DIRECTION('ref_axis',(1.,0.,0.));
#375=DIRECTION('center_axis',(0.,0.,1.));
#376=DIRECTION('ref_axis',(1.,0.,0.));
#377=DIRECTION('center_axis',(0.,0.,1.));
#378=DIRECTION('ref_axis',(1.,0.,0.));
#379=CARTESIAN_POINT('',(0.,0.,0.));
#380=CARTESIAN_POINT('Origin',(14.6630522088353,-0.87851396690741,10.2));
#381=CARTESIAN_POINT('',(15.6630522088353,1.37148603309259,10.2));
#382=CARTESIAN_POINT('',(14.6630522088353,1.37148603309259,11.2));
#383=CARTESIAN_POINT('Origin',(14.6630522088353,1.37148603309259,10.2));
#384=CARTESIAN_POINT('',(14.6630522088353,-0.62851396690741,11.2));
#385=CARTESIAN_POINT('',(14.6630522088353,-0.87851396690741,11.2));
#386=CARTESIAN_POINT('',(15.6630522088353,-0.628513966907409,10.2));
#387=CARTESIAN_POINT('Origin',(14.6630522088353,-0.628513966907413,10.2));
#388=CARTESIAN_POINT('',(15.6630522088353,-0.87851396690741,10.2));
#389=CARTESIAN_POINT('Origin',(15.6630522088353,-2.12851396690741,0.));
#390=CARTESIAN_POINT('',(15.6630522088353,-0.628513966907409,1.2));
#391=CARTESIAN_POINT('',(15.6630522088353,-0.628513966907409,1.2));
#392=CARTESIAN_POINT('',(15.6630522088353,-2.12851396690741,1.2));
#393=CARTESIAN_POINT('',(15.6630522088353,-2.12851396690741,1.2));
#394=CARTESIAN_POINT('',(15.6630522088353,-2.12851396690741,1.));
#395=CARTESIAN_POINT('',(15.6630522088353,-2.12851396690741,0.));
#396=CARTESIAN_POINT('',(15.6630522088353,-1.12851396690741,0.));
#397=CARTESIAN_POINT('',(15.6630522088353,-1.62851396690741,0.500000000000001));
#398=CARTESIAN_POINT('',(15.6630522088353,1.87148603309259,0.));
#399=CARTESIAN_POINT('',(15.6630522088353,-2.12851396690741,0.));
#400=CARTESIAN_POINT('',(15.6630522088353,2.87148603309259,1.));
#401=CARTESIAN_POINT('',(15.6630522088353,1.12148603309259,-0.749999999999999));
#402=CARTESIAN_POINT('',(15.6630522088353,2.87148603309259,1.2));
#403=CARTESIAN_POINT('',(15.6630522088353,2.87148603309259,0.));
#404=CARTESIAN_POINT('',(15.6630522088353,1.37148603309259,1.2));
#405=CARTESIAN_POINT('',(15.6630522088353,-2.12851396690741,1.2));
#406=CARTESIAN_POINT('',(15.6630522088353,1.37148603309259,1.2));
#407=CARTESIAN_POINT('Origin',(-9.23694779116466,-0.628513966907413,1.2));
#408=CARTESIAN_POINT('',(-8.23694779116466,-0.628513966907413,11.2));
#409=CARTESIAN_POINT('',(-9.23694779116466,-0.628513966907413,11.2));
#410=CARTESIAN_POINT('',(-9.23694779116466,-0.628513966907413,10.2));
#411=CARTESIAN_POINT('Origin',(-8.23694779116466,-0.628513966907412,10.2));
#412=CARTESIAN_POINT('',(-9.23694779116466,-0.628513966907413,1.2));
#413=CARTESIAN_POINT('',(-9.23694779116466,-0.628513966907413,1.2));
#414=CARTESIAN_POINT('',(-3.01194779116466,-0.628513966907412,1.2));
#415=CARTESIAN_POINT('Origin',(-8.23694779116466,1.62148603309259,10.2));
#416=CARTESIAN_POINT('',(-8.23694779116466,1.37148603309259,11.2));
#417=CARTESIAN_POINT('',(-8.23694779116466,1.62148603309259,11.2));
#418=CARTESIAN_POINT('',(-9.23694779116466,1.37148603309259,10.2));
#419=CARTESIAN_POINT('Origin',(-8.23694779116466,1.37148603309258,10.2));
#420=CARTESIAN_POINT('',(-9.23694779116466,1.62148603309259,10.2));
#421=CARTESIAN_POINT('Origin',(-9.23694779116466,2.87148603309259,0.));
#422=CARTESIAN_POINT('',(-9.23694779116466,1.37148603309259,1.2));
#423=CARTESIAN_POINT('',(-9.23694779116466,1.37148603309259,1.2));
#424=CARTESIAN_POINT('',(-9.23694779116466,2.87148603309259,1.2));
#425=CARTESIAN_POINT('',(-9.23694779116466,2.87148603309259,1.2));
#426=CARTESIAN_POINT('',(-9.23694779116466,2.87148603309259,1.));
#427=CARTESIAN_POINT('',(-9.23694779116466,2.87148603309259,0.));
#428=CARTESIAN_POINT('',(-9.23694779116466,1.87148603309259,0.));
#429=CARTESIAN_POINT('',(-9.23694779116466,2.37148603309259,0.499999999999998));
#430=CARTESIAN_POINT('',(-9.23694779116466,-1.12851396690741,0.));
#431=CARTESIAN_POINT('',(-9.23694779116466,2.87148603309259,0.));
#432=CARTESIAN_POINT('',(-9.23694779116466,-2.12851396690741,1.));
#433=CARTESIAN_POINT('',(-9.23694779116466,-0.378513966907411,-0.75));
#434=CARTESIAN_POINT('',(-9.23694779116466,-2.12851396690741,1.2));
#435=CARTESIAN_POINT('',(-9.23694779116466,-2.12851396690741,0.));
#436=CARTESIAN_POINT('',(-9.23694779116466,2.87148603309259,1.2));
#437=CARTESIAN_POINT('Origin',(-3.01194779116466,-1.62851396690741,0.5));
#438=CARTESIAN_POINT('',(-3.01194779116466,-2.12851396690741,1.));
#439=CARTESIAN_POINT('',(-3.01194779116466,-1.12851396690741,0.));
#440=CARTESIAN_POINT('Origin',(-9.23694779116466,-2.12851396690741,0.));
#441=CARTESIAN_POINT('',(-9.23694779116466,-2.12851396690741,1.2));
#442=CARTESIAN_POINT('Origin',(9.43805220883534,2.37148603309259,0.5));
#443=CARTESIAN_POINT('',(9.43805220883534,2.87148603309259,1.));
#444=CARTESIAN_POINT('',(9.43805220883534,1.87148603309259,0.));
#445=CARTESIAN_POINT('Origin',(15.6630522088353,2.87148603309259,0.));
#446=CARTESIAN_POINT('',(15.6630522088353,2.87148603309259,1.2));
#447=CARTESIAN_POINT('Origin',(15.6630522088353,1.37148603309259,1.2));
#448=CARTESIAN_POINT('',(9.43805220883534,1.37148603309259,1.2));
#449=CARTESIAN_POINT('',(15.6630522088353,1.37148603309259,11.2));
#450=CARTESIAN_POINT('Origin',(3.21305220883535,0.371486033092588,11.2));
#451=CARTESIAN_POINT('Origin',(3.21305220883534,0.371486033092589,1.2));
#452=CARTESIAN_POINT('Origin',(3.21305220883534,0.371486033092589,1.2));
#453=CARTESIAN_POINT('Origin',(3.21305220883534,0.371486033092589,0.));
#454=UNCERTAINTY_MEASURE_WITH_UNIT(LENGTH_MEASURE(0.01),#458,
'DISTANCE_ACCURACY_VALUE',
'Maximum model space distance between geometric entities at asserted c
onnectivities');
#455=UNCERTAINTY_MEASURE_WITH_UNIT(LENGTH_MEASURE(0.01),#458,
'DISTANCE_ACCURACY_VALUE',
'Maximum model space distance between geometric entities at asserted c
onnectivities');
#456=(
GEOMETRIC_REPRESENTATION_CONTEXT(3)
GLOBAL_UNCERTAINTY_ASSIGNED_CONTEXT((#454))
GLOBAL_UNIT_ASSIGNED_CONTEXT((#458,#460,#461))
REPRESENTATION_CONTEXT('','3D')
);
#457=(
GEOMETRIC_REPRESENTATION_CONTEXT(3)
GLOBAL_UNCERTAINTY_ASSIGNED_CONTEXT((#455))
GLOBAL_UNIT_ASSIGNED_CONTEXT((#458,#460,#461))
REPRESENTATION_CONTEXT('','3D')
);
#458=(
LENGTH_UNIT()
NAMED_UNIT(*)
SI_UNIT(.MILLI.,.METRE.)
);
#459=(
LENGTH_UNIT()
NAMED_UNIT(*)
SI_UNIT(.CENTI.,.METRE.)
);
#460=(
NAMED_UNIT(*)
PLANE_ANGLE_UNIT()
SI_UNIT($,.RADIAN.)
);
#461=(
NAMED_UNIT(*)
SI_UNIT($,.STERADIAN.)
SOLID_ANGLE_UNIT()
);
#462=SHAPE_DEFINITION_REPRESENTATION(#463,#464);
#463=PRODUCT_DEFINITION_SHAPE('',$,#466);
#464=SHAPE_REPRESENTATION('',(#290),#456);
#465=PRODUCT_DEFINITION_CONTEXT('part definition',#470,'design');
#466=PRODUCT_DEFINITION('flag','flag',#467,#465);
#467=PRODUCT_DEFINITION_FORMATION('',$,#472);
#468=PRODUCT_RELATED_PRODUCT_CATEGORY('flag','flag',(#472));
#469=APPLICATION_PROTOCOL_DEFINITION('international standard',
'automotive_design',2009,#470);
#470=APPLICATION_CONTEXT(
'Core Data for Automotive Mechanical Design Process');
#471=PRODUCT_CONTEXT('part definition',#470,'mechanical');
#472=PRODUCT('flag','flag',$,(#471));
#473=PRESENTATION_STYLE_ASSIGNMENT((#474));
#474=SURFACE_STYLE_USAGE(.BOTH.,#477);
#475=SURFACE_STYLE_RENDERING_WITH_PROPERTIES($,#481,(#476));
#476=SURFACE_STYLE_TRANSPARENT(0.);
#477=SURFACE_SIDE_STYLE('',(#478,#475));
#478=SURFACE_STYLE_FILL_AREA(#479);
#479=FILL_AREA_STYLE('',(#480));
#480=FILL_AREA_STYLE_COLOUR('',#481);
#481=COLOUR_RGB('',0.749019607843137,0.749019607843137,0.749019607843137);
ENDSEC;
END-ISO-10303-21;
