ISO-10303-21;
HEADER;
/* Generated by software containing ST-Developer
 * from STEP Tools, Inc. (www.steptools.com) 
 */

FILE_DESCRIPTION(
/* description */ ('',
'CAx-IF Rec.Pracs.---Representation and Presentation of Product Manufa
cturing Information (PMI)---4.0---2014-10-13'),
/* implementation_level */ '2;1');

FILE_NAME(
/* name */ 
'D:\\Invention\\Homelab Project\\Minilab-PSU\\Models\\psu_alignment_pl
ate.stp',
/* time_stamp */ '2025-08-27T18:48:52+08:00',
/* author */ ('Toby'),
/* organization */ (''),
/* preprocessor_version */ 'ST-DEVELOPER v18.1',
/* originating_system */ 'Autodesk Inventor 2021',
/* authorisation */ '');

FILE_SCHEMA (('AP242_MANAGED_MODEL_BASED_3D_ENGINEERING_MIM_LF { 1 0 10303 442 1 1 4 }'));
ENDSEC;

DATA;
#10=MECHANICAL_DESIGN_AND_DRAUGHTING_RELATIONSHIP('Isometric','',#24,#25);
#11=MECHANICAL_DESIGN_AND_DRAUGHTING_RELATIONSHIP('Front','',#26,#25);
#12=MECHANICAL_DESIGN_AND_DRAUGHTING_RELATIONSHIP('Top','',#27,#25);
#13=MECHANICAL_DESIGN_AND_DRAUGHTING_RELATIONSHIP('Right','',#28,#25);
#14=MAPPED_ITEM('',#19,#386);
#15=MAPPED_ITEM('',#20,#387);
#16=MAPPED_ITEM('',#21,#388);
#17=MAPPED_ITEM('',#22,#389);
#18=MAPPED_ITEM('',#23,#390);
#19=REPRESENTATION_MAP(#386,#46);
#20=REPRESENTATION_MAP(#387,#609);
#21=REPRESENTATION_MAP(#388,#46);
#22=REPRESENTATION_MAP(#389,#46);
#23=REPRESENTATION_MAP(#390,#46);
#24=DRAUGHTING_MODEL('Isometric',(#14,#30),#601);
#25=DRAUGHTING_MODEL('',(#15,#387),#601);
#26=DRAUGHTING_MODEL('Front',(#16,#31),#601);
#27=DRAUGHTING_MODEL('Top',(#17,#32),#601);
#28=DRAUGHTING_MODEL('Right',(#18,#33),#601);
#29=MECHANICAL_DESIGN_GEOMETRIC_PRESENTATION_REPRESENTATION('',(#60,#61,
#62,#63,#64,#65,#66,#67,#68,#69,#70,#71,#72,#73),#602);
#30=CAMERA_MODEL_D3('Isometric',#378,#34);
#31=CAMERA_MODEL_D3('Front',#380,#35);
#32=CAMERA_MODEL_D3('Top',#382,#36);
#33=CAMERA_MODEL_D3('Right',#384,#37);
#34=VIEW_VOLUME(.PARALLEL.,#584,16.9875424688562,0.,.F.,0.,.F.,.F.,#38);
#35=VIEW_VOLUME(.PARALLEL.,#587,117.693146607172,0.,.F.,0.,.F.,.F.,#39);
#36=VIEW_VOLUME(.PARALLEL.,#590,117.693146607172,0.,.F.,0.,.F.,.F.,#40);
#37=VIEW_VOLUME(.PARALLEL.,#593,117.693146607172,0.,.F.,0.,.F.,.F.,#41);
#38=PLANAR_BOX('view window',0.,0.,#379);
#39=PLANAR_BOX('view window',0.,0.,#381);
#40=PLANAR_BOX('view window',0.,0.,#383);
#41=PLANAR_BOX('view window',0.,0.,#385);
#42=GEOMETRICALLY_BOUNDED_WIREFRAME_SHAPE_REPRESENTATION('',(#43),#601);
#43=GEOMETRIC_CURVE_SET('Sketch1',(#48,#49,#50,#51,#52,#53,#54,#55,#56,
#57,#58,#59));
#44=SHAPE_REPRESENTATION_RELATIONSHIP('SRR','None',#609,#46);
#45=SHAPE_REPRESENTATION_RELATIONSHIP('SRR','None',#609,#42);
#46=ADVANCED_BREP_SHAPE_REPRESENTATION('',(#75),#601);
#47=INVISIBILITY((#61,#62,#63,#64,#65,#66,#67,#68,#69,#70,#71,#72,#73));
#48=POLYLINE('',(#558,#559));
#49=POLYLINE('',(#560,#561));
#50=POLYLINE('',(#562,#563));
#51=POLYLINE('',(#564,#565));
#52=POLYLINE('',(#566,#567));
#53=POLYLINE('',(#568,#569));
#54=POLYLINE('',(#570,#571));
#55=POLYLINE('',(#572,#573));
#56=POLYLINE('',(#574,#575));
#57=POLYLINE('',(#576,#577));
#58=POLYLINE('',(#578,#579));
#59=POLYLINE('',(#580,#581));
#60=STYLED_ITEM('',(#618),#75);
#61=STYLED_ITEM('',(#619),#48);
#62=STYLED_ITEM('',(#619),#49);
#63=STYLED_ITEM('',(#619),#50);
#64=STYLED_ITEM('',(#619),#51);
#65=STYLED_ITEM('',(#619),#52);
#66=STYLED_ITEM('',(#619),#53);
#67=STYLED_ITEM('',(#619),#54);
#68=STYLED_ITEM('',(#619),#55);
#69=STYLED_ITEM('',(#619),#56);
#70=STYLED_ITEM('',(#619),#57);
#71=STYLED_ITEM('',(#619),#58);
#72=STYLED_ITEM('',(#619),#59);
#73=STYLED_ITEM('',(#620),#43);
#74=STYLED_ITEM('',(#621),#15);
#75=MANIFOLD_SOLID_BREP('Solid1',#344);
#76=FACE_BOUND('',#96,.T.);
#77=FACE_BOUND('',#97,.T.);
#78=FACE_BOUND('',#110,.T.);
#79=FACE_BOUND('',#111,.T.);
#80=FACE_OUTER_BOUND('',#94,.T.);
#81=FACE_OUTER_BOUND('',#95,.T.);
#82=FACE_OUTER_BOUND('',#98,.T.);
#83=FACE_OUTER_BOUND('',#99,.T.);
#84=FACE_OUTER_BOUND('',#100,.T.);
#85=FACE_OUTER_BOUND('',#101,.T.);
#86=FACE_OUTER_BOUND('',#102,.T.);
#87=FACE_OUTER_BOUND('',#103,.T.);
#88=FACE_OUTER_BOUND('',#104,.T.);
#89=FACE_OUTER_BOUND('',#105,.T.);
#90=FACE_OUTER_BOUND('',#106,.T.);
#91=FACE_OUTER_BOUND('',#107,.T.);
#92=FACE_OUTER_BOUND('',#108,.T.);
#93=FACE_OUTER_BOUND('',#109,.T.);
#94=EDGE_LOOP('',(#244,#245,#246,#247));
#95=EDGE_LOOP('',(#248,#249,#250,#251));
#96=EDGE_LOOP('',(#252,#253,#254,#255));
#97=EDGE_LOOP('',(#256,#257,#258,#259));
#98=EDGE_LOOP('',(#260,#261,#262,#263));
#99=EDGE_LOOP('',(#264,#265,#266,#267));
#100=EDGE_LOOP('',(#268,#269,#270,#271));
#101=EDGE_LOOP('',(#272,#273,#274,#275));
#102=EDGE_LOOP('',(#276,#277,#278,#279));
#103=EDGE_LOOP('',(#280,#281,#282,#283));
#104=EDGE_LOOP('',(#284,#285,#286,#287));
#105=EDGE_LOOP('',(#288,#289,#290,#291));
#106=EDGE_LOOP('',(#292,#293,#294,#295));
#107=EDGE_LOOP('',(#296,#297,#298,#299));
#108=EDGE_LOOP('',(#300,#301,#302,#303));
#109=EDGE_LOOP('',(#304,#305,#306,#307));
#110=EDGE_LOOP('',(#308,#309,#310,#311));
#111=EDGE_LOOP('',(#312,#313,#314,#315));
#112=LINE('',#487,#148);
#113=LINE('',#489,#149);
#114=LINE('',#491,#150);
#115=LINE('',#492,#151);
#116=LINE('',#495,#152);
#117=LINE('',#497,#153);
#118=LINE('',#498,#154);
#119=LINE('',#501,#155);
#120=LINE('',#503,#156);
#121=LINE('',#505,#157);
#122=LINE('',#506,#158);
#123=LINE('',#509,#159);
#124=LINE('',#511,#160);
#125=LINE('',#513,#161);
#126=LINE('',#514,#162);
#127=LINE('',#517,#163);
#128=LINE('',#518,#164);
#129=LINE('',#521,#165);
#130=LINE('',#522,#166);
#131=LINE('',#524,#167);
#132=LINE('',#528,#168);
#133=LINE('',#529,#169);
#134=LINE('',#530,#170);
#135=LINE('',#533,#171);
#136=LINE('',#534,#172);
#137=LINE('',#537,#173);
#138=LINE('',#538,#174);
#139=LINE('',#540,#175);
#140=LINE('',#544,#176);
#141=LINE('',#545,#177);
#142=LINE('',#546,#178);
#143=LINE('',#549,#179);
#144=LINE('',#550,#180);
#145=LINE('',#553,#181);
#146=LINE('',#554,#182);
#147=LINE('',#556,#183);
#148=VECTOR('',#395,10.);
#149=VECTOR('',#396,10.);
#150=VECTOR('',#397,10.);
#151=VECTOR('',#398,10.);
#152=VECTOR('',#401,10.);
#153=VECTOR('',#402,10.);
#154=VECTOR('',#403,10.);
#155=VECTOR('',#404,10.);
#156=VECTOR('',#405,10.);
#157=VECTOR('',#406,10.);
#158=VECTOR('',#407,10.);
#159=VECTOR('',#408,10.);
#160=VECTOR('',#409,10.);
#161=VECTOR('',#410,10.);
#162=VECTOR('',#411,10.);
#163=VECTOR('',#414,10.);
#164=VECTOR('',#415,10.);
#165=VECTOR('',#418,10.);
#166=VECTOR('',#419,10.);
#167=VECTOR('',#422,10.);
#168=VECTOR('',#425,10.);
#169=VECTOR('',#426,10.);
#170=VECTOR('',#427,10.);
#171=VECTOR('',#430,10.);
#172=VECTOR('',#431,10.);
#173=VECTOR('',#434,10.);
#174=VECTOR('',#435,10.);
#175=VECTOR('',#438,10.);
#176=VECTOR('',#441,10.);
#177=VECTOR('',#442,10.);
#178=VECTOR('',#443,10.);
#179=VECTOR('',#446,10.);
#180=VECTOR('',#447,10.);
#181=VECTOR('',#450,10.);
#182=VECTOR('',#451,10.);
#183=VECTOR('',#454,10.);
#184=VERTEX_POINT('',#485);
#185=VERTEX_POINT('',#486);
#186=VERTEX_POINT('',#488);
#187=VERTEX_POINT('',#490);
#188=VERTEX_POINT('',#494);
#189=VERTEX_POINT('',#496);
#190=VERTEX_POINT('',#499);
#191=VERTEX_POINT('',#500);
#192=VERTEX_POINT('',#502);
#193=VERTEX_POINT('',#504);
#194=VERTEX_POINT('',#507);
#195=VERTEX_POINT('',#508);
#196=VERTEX_POINT('',#510);
#197=VERTEX_POINT('',#512);
#198=VERTEX_POINT('',#516);
#199=VERTEX_POINT('',#520);
#200=VERTEX_POINT('',#526);
#201=VERTEX_POINT('',#527);
#202=VERTEX_POINT('',#532);
#203=VERTEX_POINT('',#536);
#204=VERTEX_POINT('',#542);
#205=VERTEX_POINT('',#543);
#206=VERTEX_POINT('',#548);
#207=VERTEX_POINT('',#552);
#208=EDGE_CURVE('',#184,#185,#112,.T.);
#209=EDGE_CURVE('',#185,#186,#113,.T.);
#210=EDGE_CURVE('',#186,#187,#114,.T.);
#211=EDGE_CURVE('',#187,#184,#115,.T.);
#212=EDGE_CURVE('',#185,#188,#116,.T.);
#213=EDGE_CURVE('',#189,#188,#117,.T.);
#214=EDGE_CURVE('',#189,#186,#118,.T.);
#215=EDGE_CURVE('',#190,#191,#119,.T.);
#216=EDGE_CURVE('',#191,#192,#120,.T.);
#217=EDGE_CURVE('',#192,#193,#121,.T.);
#218=EDGE_CURVE('',#193,#190,#122,.T.);
#219=EDGE_CURVE('',#194,#195,#123,.T.);
#220=EDGE_CURVE('',#195,#196,#124,.T.);
#221=EDGE_CURVE('',#196,#197,#125,.T.);
#222=EDGE_CURVE('',#197,#194,#126,.T.);
#223=EDGE_CURVE('',#184,#198,#127,.T.);
#224=EDGE_CURVE('',#188,#198,#128,.T.);
#225=EDGE_CURVE('',#199,#189,#129,.T.);
#226=EDGE_CURVE('',#198,#199,#130,.T.);
#227=EDGE_CURVE('',#199,#187,#131,.T.);
#228=EDGE_CURVE('',#200,#201,#132,.T.);
#229=EDGE_CURVE('',#201,#190,#133,.T.);
#230=EDGE_CURVE('',#200,#193,#134,.T.);
#231=EDGE_CURVE('',#202,#200,#135,.T.);
#232=EDGE_CURVE('',#202,#192,#136,.T.);
#233=EDGE_CURVE('',#203,#202,#137,.T.);
#234=EDGE_CURVE('',#203,#191,#138,.T.);
#235=EDGE_CURVE('',#201,#203,#139,.T.);
#236=EDGE_CURVE('',#204,#205,#140,.T.);
#237=EDGE_CURVE('',#205,#194,#141,.T.);
#238=EDGE_CURVE('',#204,#197,#142,.T.);
#239=EDGE_CURVE('',#206,#204,#143,.T.);
#240=EDGE_CURVE('',#206,#196,#144,.T.);
#241=EDGE_CURVE('',#207,#206,#145,.T.);
#242=EDGE_CURVE('',#207,#195,#146,.T.);
#243=EDGE_CURVE('',#205,#207,#147,.T.);
#244=ORIENTED_EDGE('',*,*,#208,.T.);
#245=ORIENTED_EDGE('',*,*,#209,.T.);
#246=ORIENTED_EDGE('',*,*,#210,.T.);
#247=ORIENTED_EDGE('',*,*,#211,.T.);
#248=ORIENTED_EDGE('',*,*,#209,.F.);
#249=ORIENTED_EDGE('',*,*,#212,.T.);
#250=ORIENTED_EDGE('',*,*,#213,.F.);
#251=ORIENTED_EDGE('',*,*,#214,.T.);
#252=ORIENTED_EDGE('',*,*,#215,.T.);
#253=ORIENTED_EDGE('',*,*,#216,.T.);
#254=ORIENTED_EDGE('',*,*,#217,.T.);
#255=ORIENTED_EDGE('',*,*,#218,.T.);
#256=ORIENTED_EDGE('',*,*,#219,.T.);
#257=ORIENTED_EDGE('',*,*,#220,.T.);
#258=ORIENTED_EDGE('',*,*,#221,.T.);
#259=ORIENTED_EDGE('',*,*,#222,.T.);
#260=ORIENTED_EDGE('',*,*,#208,.F.);
#261=ORIENTED_EDGE('',*,*,#223,.T.);
#262=ORIENTED_EDGE('',*,*,#224,.F.);
#263=ORIENTED_EDGE('',*,*,#212,.F.);
#264=ORIENTED_EDGE('',*,*,#225,.T.);
#265=ORIENTED_EDGE('',*,*,#213,.T.);
#266=ORIENTED_EDGE('',*,*,#224,.T.);
#267=ORIENTED_EDGE('',*,*,#226,.T.);
#268=ORIENTED_EDGE('',*,*,#210,.F.);
#269=ORIENTED_EDGE('',*,*,#214,.F.);
#270=ORIENTED_EDGE('',*,*,#225,.F.);
#271=ORIENTED_EDGE('',*,*,#227,.T.);
#272=ORIENTED_EDGE('',*,*,#228,.T.);
#273=ORIENTED_EDGE('',*,*,#229,.T.);
#274=ORIENTED_EDGE('',*,*,#218,.F.);
#275=ORIENTED_EDGE('',*,*,#230,.F.);
#276=ORIENTED_EDGE('',*,*,#231,.T.);
#277=ORIENTED_EDGE('',*,*,#230,.T.);
#278=ORIENTED_EDGE('',*,*,#217,.F.);
#279=ORIENTED_EDGE('',*,*,#232,.F.);
#280=ORIENTED_EDGE('',*,*,#233,.T.);
#281=ORIENTED_EDGE('',*,*,#232,.T.);
#282=ORIENTED_EDGE('',*,*,#216,.F.);
#283=ORIENTED_EDGE('',*,*,#234,.F.);
#284=ORIENTED_EDGE('',*,*,#235,.T.);
#285=ORIENTED_EDGE('',*,*,#234,.T.);
#286=ORIENTED_EDGE('',*,*,#215,.F.);
#287=ORIENTED_EDGE('',*,*,#229,.F.);
#288=ORIENTED_EDGE('',*,*,#236,.T.);
#289=ORIENTED_EDGE('',*,*,#237,.T.);
#290=ORIENTED_EDGE('',*,*,#222,.F.);
#291=ORIENTED_EDGE('',*,*,#238,.F.);
#292=ORIENTED_EDGE('',*,*,#239,.T.);
#293=ORIENTED_EDGE('',*,*,#238,.T.);
#294=ORIENTED_EDGE('',*,*,#221,.F.);
#295=ORIENTED_EDGE('',*,*,#240,.F.);
#296=ORIENTED_EDGE('',*,*,#241,.T.);
#297=ORIENTED_EDGE('',*,*,#240,.T.);
#298=ORIENTED_EDGE('',*,*,#220,.F.);
#299=ORIENTED_EDGE('',*,*,#242,.F.);
#300=ORIENTED_EDGE('',*,*,#243,.T.);
#301=ORIENTED_EDGE('',*,*,#242,.T.);
#302=ORIENTED_EDGE('',*,*,#219,.F.);
#303=ORIENTED_EDGE('',*,*,#237,.F.);
#304=ORIENTED_EDGE('',*,*,#227,.F.);
#305=ORIENTED_EDGE('',*,*,#226,.F.);
#306=ORIENTED_EDGE('',*,*,#223,.F.);
#307=ORIENTED_EDGE('',*,*,#211,.F.);
#308=ORIENTED_EDGE('',*,*,#243,.F.);
#309=ORIENTED_EDGE('',*,*,#236,.F.);
#310=ORIENTED_EDGE('',*,*,#239,.F.);
#311=ORIENTED_EDGE('',*,*,#241,.F.);
#312=ORIENTED_EDGE('',*,*,#235,.F.);
#313=ORIENTED_EDGE('',*,*,#228,.F.);
#314=ORIENTED_EDGE('',*,*,#231,.F.);
#315=ORIENTED_EDGE('',*,*,#233,.F.);
#316=PLANE('',#364);
#317=PLANE('',#365);
#318=PLANE('',#366);
#319=PLANE('',#367);
#320=PLANE('',#368);
#321=PLANE('',#369);
#322=PLANE('',#370);
#323=PLANE('',#371);
#324=PLANE('',#372);
#325=PLANE('',#373);
#326=PLANE('',#374);
#327=PLANE('',#375);
#328=PLANE('',#376);
#329=PLANE('',#377);
#330=ADVANCED_FACE('',(#80),#316,.T.);
#331=ADVANCED_FACE('',(#81,#76,#77),#317,.T.);
#332=ADVANCED_FACE('',(#82),#318,.T.);
#333=ADVANCED_FACE('',(#83),#319,.T.);
#334=ADVANCED_FACE('',(#84),#320,.T.);
#335=ADVANCED_FACE('',(#85),#321,.T.);
#336=ADVANCED_FACE('',(#86),#322,.T.);
#337=ADVANCED_FACE('',(#87),#323,.T.);
#338=ADVANCED_FACE('',(#88),#324,.T.);
#339=ADVANCED_FACE('',(#89),#325,.T.);
#340=ADVANCED_FACE('',(#90),#326,.T.);
#341=ADVANCED_FACE('',(#91),#327,.T.);
#342=ADVANCED_FACE('',(#92),#328,.T.);
#343=ADVANCED_FACE('',(#93,#78,#79),#329,.F.);
#344=CLOSED_SHELL('',(#330,#331,#332,#333,#334,#335,#336,#337,#338,#339,
#340,#341,#342,#343));
#345=DERIVED_UNIT_ELEMENT(#347,1.);
#346=DERIVED_UNIT_ELEMENT(#604,3.);
#347=(
MASS_UNIT()
NAMED_UNIT(*)
SI_UNIT($,.GRAM.)
);
#348=DERIVED_UNIT((#345,#346));
#349=MEASURE_REPRESENTATION_ITEM('density measure',
POSITIVE_RATIO_MEASURE(1.),#348);
#350=PROPERTY_DEFINITION_REPRESENTATION(#355,#352);
#351=PROPERTY_DEFINITION_REPRESENTATION(#356,#353);
#352=REPRESENTATION('material name',(#354),#601);
#353=REPRESENTATION('density',(#349),#601);
#354=DESCRIPTIVE_REPRESENTATION_ITEM('Generic','Generic');
#355=PROPERTY_DEFINITION('material property','material name',#611);
#356=PROPERTY_DEFINITION('material property','density of part',#611);
#357=DATE_TIME_ROLE('creation_date');
#358=APPLIED_DATE_AND_TIME_ASSIGNMENT(#359,#357,(#611));
#359=DATE_AND_TIME(#360,#361);
#360=CALENDAR_DATE(2025,27,8);
#361=LOCAL_TIME(0,0,0.,#362);
#362=COORDINATED_UNIVERSAL_TIME_OFFSET(0,0,.BEHIND.);
#363=AXIS2_PLACEMENT_3D('placement',#483,#391,#392);
#364=AXIS2_PLACEMENT_3D('',#484,#393,#394);
#365=AXIS2_PLACEMENT_3D('',#493,#399,#400);
#366=AXIS2_PLACEMENT_3D('',#515,#412,#413);
#367=AXIS2_PLACEMENT_3D('',#519,#416,#417);
#368=AXIS2_PLACEMENT_3D('',#523,#420,#421);
#369=AXIS2_PLACEMENT_3D('',#525,#423,#424);
#370=AXIS2_PLACEMENT_3D('',#531,#428,#429);
#371=AXIS2_PLACEMENT_3D('',#535,#432,#433);
#372=AXIS2_PLACEMENT_3D('',#539,#436,#437);
#373=AXIS2_PLACEMENT_3D('',#541,#439,#440);
#374=AXIS2_PLACEMENT_3D('',#547,#444,#445);
#375=AXIS2_PLACEMENT_3D('',#551,#448,#449);
#376=AXIS2_PLACEMENT_3D('',#555,#452,#453);
#377=AXIS2_PLACEMENT_3D('',#557,#455,#456);
#378=AXIS2_PLACEMENT_3D('view reference',#582,#457,#458);
#379=AXIS2_PLACEMENT_3D('view window',#583,#459,#460);
#380=AXIS2_PLACEMENT_3D('view reference',#585,#461,#462);
#381=AXIS2_PLACEMENT_3D('view window',#586,#463,#464);
#382=AXIS2_PLACEMENT_3D('view reference',#588,#465,#466);
#383=AXIS2_PLACEMENT_3D('view window',#589,#467,#468);
#384=AXIS2_PLACEMENT_3D('view reference',#591,#469,#470);
#385=AXIS2_PLACEMENT_3D('view window',#592,#471,#472);
#386=AXIS2_PLACEMENT_3D('',#594,#473,#474);
#387=AXIS2_PLACEMENT_3D('',#595,#475,#476);
#388=AXIS2_PLACEMENT_3D('',#596,#477,#478);
#389=AXIS2_PLACEMENT_3D('',#597,#479,#480);
#390=AXIS2_PLACEMENT_3D('',#598,#481,#482);
#391=DIRECTION('axis',(0.,0.,1.));
#392=DIRECTION('refdir',(1.,0.,0.));
#393=DIRECTION('center_axis',(0.707106781186548,0.,0.707106781186547));
#394=DIRECTION('ref_axis',(0.707106781186547,0.,-0.707106781186548));
#395=DIRECTION('',(-0.707106781186547,0.,0.707106781186548));
#396=DIRECTION('',(0.,-1.,0.));
#397=DIRECTION('',(0.707106781186547,1.12149461334555E-16,-0.707106781186548));
#398=DIRECTION('',(0.,1.,0.));
#399=DIRECTION('center_axis',(0.,0.,1.));
#400=DIRECTION('ref_axis',(1.,0.,0.));
#401=DIRECTION('',(-1.,0.,0.));
#402=DIRECTION('',(-1.49273683983214E-16,1.,0.));
#403=DIRECTION('',(1.,1.58603289232165E-16,0.));
#404=DIRECTION('',(1.,5.44226972855469E-18,0.));
#405=DIRECTION('',(0.,-1.,0.));
#406=DIRECTION('',(-1.,-8.7076315656875E-17,0.));
#407=DIRECTION('',(0.,1.,0.));
#408=DIRECTION('',(1.,0.,0.));
#409=DIRECTION('',(0.,-1.,0.));
#410=DIRECTION('',(-1.,-1.25172203756758E-16,0.));
#411=DIRECTION('',(-1.72461829067985E-16,1.,0.));
#412=DIRECTION('center_axis',(0.,1.,0.));
#413=DIRECTION('ref_axis',(-1.,0.,0.));
#414=DIRECTION('',(-1.,0.,0.));
#415=DIRECTION('',(-0.707106781186546,0.,-0.707106781186549));
#416=DIRECTION('center_axis',(-0.707106781186549,-1.05552434197229E-16,
0.707106781186546));
#417=DIRECTION('ref_axis',(0.707106781186546,0.,0.707106781186549));
#418=DIRECTION('',(0.707106781186546,1.12149461334555E-16,0.707106781186549));
#419=DIRECTION('',(1.49273683983214E-16,-1.,0.));
#420=DIRECTION('center_axis',(1.58603289232165E-16,-1.,0.));
#421=DIRECTION('ref_axis',(1.,1.58603289232165E-16,0.));
#422=DIRECTION('',(1.,1.58603289232165E-16,0.));
#423=DIRECTION('center_axis',(1.,0.,0.));
#424=DIRECTION('ref_axis',(0.,1.,0.));
#425=DIRECTION('',(0.,1.,0.));
#426=DIRECTION('',(0.,0.,1.));
#427=DIRECTION('',(0.,0.,1.));
#428=DIRECTION('center_axis',(-8.7076315656875E-17,1.,0.));
#429=DIRECTION('ref_axis',(-1.,-8.7076315656875E-17,0.));
#430=DIRECTION('',(-1.,-8.7076315656875E-17,0.));
#431=DIRECTION('',(0.,0.,1.));
#432=DIRECTION('center_axis',(-1.,0.,0.));
#433=DIRECTION('ref_axis',(0.,-1.,0.));
#434=DIRECTION('',(0.,-1.,0.));
#435=DIRECTION('',(0.,0.,1.));
#436=DIRECTION('center_axis',(5.44226972855469E-18,-1.,0.));
#437=DIRECTION('ref_axis',(1.,5.44226972855469E-18,0.));
#438=DIRECTION('',(1.,5.44226972855469E-18,0.));
#439=DIRECTION('center_axis',(1.,1.72461829067985E-16,0.));
#440=DIRECTION('ref_axis',(-1.72461829067985E-16,1.,0.));
#441=DIRECTION('',(-1.72461829067985E-16,1.,0.));
#442=DIRECTION('',(0.,0.,1.));
#443=DIRECTION('',(0.,0.,1.));
#444=DIRECTION('center_axis',(-1.25172203756758E-16,1.,0.));
#445=DIRECTION('ref_axis',(-1.,-1.25172203756758E-16,0.));
#446=DIRECTION('',(-1.,-1.25172203756758E-16,0.));
#447=DIRECTION('',(0.,0.,1.));
#448=DIRECTION('center_axis',(-1.,0.,0.));
#449=DIRECTION('ref_axis',(0.,-1.,0.));
#450=DIRECTION('',(0.,-1.,0.));
#451=DIRECTION('',(0.,0.,1.));
#452=DIRECTION('center_axis',(0.,-1.,0.));
#453=DIRECTION('ref_axis',(1.,0.,0.));
#454=DIRECTION('',(1.,0.,0.));
#455=DIRECTION('center_axis',(0.,0.,1.));
#456=DIRECTION('ref_axis',(1.,0.,0.));
#457=DIRECTION('center_axis',(-0.577350269189626,0.577350269189626,-0.577350269189626));
#458=DIRECTION('ref_axis',(-0.707106781186548,-0.707106781186548,0.));
#459=DIRECTION('center_axis',(0.,0.,1.));
#460=DIRECTION('ref_axis',(1.,0.,0.));
#461=DIRECTION('center_axis',(-2.22044604925031E-16,0.,-1.));
#462=DIRECTION('ref_axis',(-1.,0.,2.22044604925031E-16));
#463=DIRECTION('center_axis',(0.,0.,1.));
#464=DIRECTION('ref_axis',(1.,0.,0.));
#465=DIRECTION('center_axis',(0.,-1.,0.));
#466=DIRECTION('ref_axis',(-1.,0.,0.));
#467=DIRECTION('center_axis',(0.,0.,1.));
#468=DIRECTION('ref_axis',(1.,0.,0.));
#469=DIRECTION('center_axis',(-1.,0.,0.));
#470=DIRECTION('ref_axis',(0.,0.,1.));
#471=DIRECTION('center_axis',(0.,0.,1.));
#472=DIRECTION('ref_axis',(1.,0.,0.));
#473=DIRECTION('center_axis',(0.,0.,1.));
#474=DIRECTION('ref_axis',(1.,0.,0.));
#475=DIRECTION('center_axis',(0.,0.,1.));
#476=DIRECTION('ref_axis',(1.,0.,0.));
#477=DIRECTION('center_axis',(0.,0.,1.));
#478=DIRECTION('ref_axis',(1.,0.,0.));
#479=DIRECTION('center_axis',(0.,0.,1.));
#480=DIRECTION('ref_axis',(1.,0.,0.));
#481=DIRECTION('center_axis',(0.,0.,1.));
#482=DIRECTION('ref_axis',(1.,0.,0.));
#483=CARTESIAN_POINT('',(0.,0.,0.));
#484=CARTESIAN_POINT('Origin',(54.5,-29.75,1.5));
#485=CARTESIAN_POINT('',(56.,59.5,0.));
#486=CARTESIAN_POINT('',(53.,59.5,3.));
#487=CARTESIAN_POINT('',(55.25,59.5,0.749999999999999));
#488=CARTESIAN_POINT('',(53.,-59.5,3.));
#489=CARTESIAN_POINT('',(53.,-29.75,3.));
#490=CARTESIAN_POINT('',(56.,-59.5,0.));
#491=CARTESIAN_POINT('',(27.25,-59.5,28.75));
#492=CARTESIAN_POINT('',(56.,-59.5,0.));
#493=CARTESIAN_POINT('Origin',(-8.88178419700125E-15,-8.88178419700125E-15,
3.));
#494=CARTESIAN_POINT('',(-53.,59.5,3.));
#495=CARTESIAN_POINT('',(56.,59.5,3.));
#496=CARTESIAN_POINT('',(-53.,-59.5,3.));
#497=CARTESIAN_POINT('',(-53.,29.75,3.));
#498=CARTESIAN_POINT('',(-56.,-59.5,3.));
#499=CARTESIAN_POINT('',(-51.,-5.,3.));
#500=CARTESIAN_POINT('',(51.,-5.,3.));
#501=CARTESIAN_POINT('',(-51.,-5.,3.));
#502=CARTESIAN_POINT('',(51.,-56.5,3.));
#503=CARTESIAN_POINT('',(51.,-5.,3.));
#504=CARTESIAN_POINT('',(-51.,-56.5,3.));
#505=CARTESIAN_POINT('',(51.,-56.5,3.));
#506=CARTESIAN_POINT('',(-51.,-56.5,3.));
#507=CARTESIAN_POINT('',(-51.,56.5,3.));
#508=CARTESIAN_POINT('',(51.,56.5,3.));
#509=CARTESIAN_POINT('',(-51.,56.5,3.));
#510=CARTESIAN_POINT('',(51.,5.00000000000001,3.));
#511=CARTESIAN_POINT('',(51.,56.5,3.));
#512=CARTESIAN_POINT('',(-51.,4.99999999999999,3.));
#513=CARTESIAN_POINT('',(51.,5.00000000000001,3.));
#514=CARTESIAN_POINT('',(-51.,4.99999999999999,3.));
#515=CARTESIAN_POINT('Origin',(56.,59.5,0.));
#516=CARTESIAN_POINT('',(-56.,59.5,0.));
#517=CARTESIAN_POINT('',(56.,59.5,0.));
#518=CARTESIAN_POINT('',(-27.2500000000001,59.5,28.75));
#519=CARTESIAN_POINT('Origin',(-54.5,29.75,1.5));
#520=CARTESIAN_POINT('',(-56.,-59.5,0.));
#521=CARTESIAN_POINT('',(-55.25,-59.5,0.749999999999999));
#522=CARTESIAN_POINT('',(-56.,59.5,0.));
#523=CARTESIAN_POINT('Origin',(-56.,-59.5,0.));
#524=CARTESIAN_POINT('',(-56.,-59.5,0.));
#525=CARTESIAN_POINT('Origin',(-51.,-56.5,0.));
#526=CARTESIAN_POINT('',(-51.,-56.5,0.));
#527=CARTESIAN_POINT('',(-51.,-5.,0.));
#528=CARTESIAN_POINT('',(-51.,-56.5,0.));
#529=CARTESIAN_POINT('',(-51.,-5.,0.));
#530=CARTESIAN_POINT('',(-51.,-56.5,0.));
#531=CARTESIAN_POINT('Origin',(51.,-56.5,0.));
#532=CARTESIAN_POINT('',(51.,-56.5,0.));
#533=CARTESIAN_POINT('',(51.,-56.5,0.));
#534=CARTESIAN_POINT('',(51.,-56.5,0.));
#535=CARTESIAN_POINT('Origin',(51.,-5.,0.));
#536=CARTESIAN_POINT('',(51.,-5.,0.));
#537=CARTESIAN_POINT('',(51.,-5.,0.));
#538=CARTESIAN_POINT('',(51.,-5.,0.));
#539=CARTESIAN_POINT('Origin',(-51.,-5.,0.));
#540=CARTESIAN_POINT('',(-51.,-5.,0.));
#541=CARTESIAN_POINT('Origin',(-51.,4.99999999999999,0.));
#542=CARTESIAN_POINT('',(-51.,4.99999999999999,0.));
#543=CARTESIAN_POINT('',(-51.,56.5,0.));
#544=CARTESIAN_POINT('',(-51.,4.99999999999999,0.));
#545=CARTESIAN_POINT('',(-51.,56.5,0.));
#546=CARTESIAN_POINT('',(-51.,4.99999999999999,0.));
#547=CARTESIAN_POINT('Origin',(51.,5.00000000000001,0.));
#548=CARTESIAN_POINT('',(51.,5.00000000000001,0.));
#549=CARTESIAN_POINT('',(51.,5.00000000000001,0.));
#550=CARTESIAN_POINT('',(51.,5.00000000000001,0.));
#551=CARTESIAN_POINT('Origin',(51.,56.5,0.));
#552=CARTESIAN_POINT('',(51.,56.5,0.));
#553=CARTESIAN_POINT('',(51.,56.5,0.));
#554=CARTESIAN_POINT('',(51.,56.5,0.));
#555=CARTESIAN_POINT('Origin',(-51.,56.5,0.));
#556=CARTESIAN_POINT('',(-51.,56.5,0.));
#557=CARTESIAN_POINT('Origin',(-1.33226762955019E-14,-4.44089209850063E-15,
0.));
#558=CARTESIAN_POINT('polyline point',(-51.,56.5,0.));
#559=CARTESIAN_POINT('polyline point',(51.,56.5,0.));
#560=CARTESIAN_POINT('polyline point',(51.,56.5,0.));
#561=CARTESIAN_POINT('polyline point',(51.,5.00000000000001,0.));
#562=CARTESIAN_POINT('polyline point',(51.,5.00000000000001,0.));
#563=CARTESIAN_POINT('polyline point',(-51.,4.99999999999999,0.));
#564=CARTESIAN_POINT('polyline point',(-51.,4.99999999999999,0.));
#565=CARTESIAN_POINT('polyline point',(-51.,56.5,0.));
#566=CARTESIAN_POINT('polyline point',(-51.,-5.,0.));
#567=CARTESIAN_POINT('polyline point',(51.,-5.,0.));
#568=CARTESIAN_POINT('polyline point',(51.,-5.,0.));
#569=CARTESIAN_POINT('polyline point',(51.,-56.5,0.));
#570=CARTESIAN_POINT('polyline point',(51.,-56.5,0.));
#571=CARTESIAN_POINT('polyline point',(-51.,-56.5,0.));
#572=CARTESIAN_POINT('polyline point',(-51.,-56.5,0.));
#573=CARTESIAN_POINT('polyline point',(-51.,-5.,0.));
#574=CARTESIAN_POINT('polyline point',(-56.,59.5,0.));
#575=CARTESIAN_POINT('polyline point',(56.,59.5,0.));
#576=CARTESIAN_POINT('polyline point',(56.,59.5,0.));
#577=CARTESIAN_POINT('polyline point',(56.,-59.5,0.));
#578=CARTESIAN_POINT('polyline point',(56.,-59.5,0.));
#579=CARTESIAN_POINT('polyline point',(-56.,-59.5,0.));
#580=CARTESIAN_POINT('polyline point',(-56.,-59.5,0.));
#581=CARTESIAN_POINT('polyline point',(-56.,59.5,0.));
#582=CARTESIAN_POINT('Origin',(9.80776221726431,-9.80776221726431,9.80776221726431));
#583=CARTESIAN_POINT('Origin',(0.,0.,16.9875424688562));
#584=CARTESIAN_POINT('',(0.,0.,0.));
#585=CARTESIAN_POINT('Origin',(2.61331282407732E-14,0.,117.693146607172));
#586=CARTESIAN_POINT('Origin',(0.,0.,117.693146607172));
#587=CARTESIAN_POINT('',(0.,0.,0.));
#588=CARTESIAN_POINT('Origin',(0.,117.693146607172,0.));
#589=CARTESIAN_POINT('Origin',(0.,0.,117.693146607172));
#590=CARTESIAN_POINT('',(0.,0.,0.));
#591=CARTESIAN_POINT('Origin',(117.693146607172,0.,0.));
#592=CARTESIAN_POINT('Origin',(0.,0.,117.693146607172));
#593=CARTESIAN_POINT('',(0.,0.,0.));
#594=CARTESIAN_POINT('Origin',(0.,0.,0.));
#595=CARTESIAN_POINT('Origin',(0.,0.,0.));
#596=CARTESIAN_POINT('Origin',(0.,0.,0.));
#597=CARTESIAN_POINT('Origin',(0.,0.,0.));
#598=CARTESIAN_POINT('Origin',(0.,0.,0.));
#599=UNCERTAINTY_MEASURE_WITH_UNIT(LENGTH_MEASURE(0.01),#603,
'DISTANCE_ACCURACY_VALUE',
'Maximum model space distance between geometric entities at asserted c
onnectivities');
#600=UNCERTAINTY_MEASURE_WITH_UNIT(LENGTH_MEASURE(0.01),#603,
'DISTANCE_ACCURACY_VALUE',
'Maximum model space distance between geometric entities at asserted c
onnectivities');
#601=(
GEOMETRIC_REPRESENTATION_CONTEXT(3)
GLOBAL_UNCERTAINTY_ASSIGNED_CONTEXT((#599))
GLOBAL_UNIT_ASSIGNED_CONTEXT((#603,#605,#606))
REPRESENTATION_CONTEXT('','3D')
);
#602=(
GEOMETRIC_REPRESENTATION_CONTEXT(3)
GLOBAL_UNCERTAINTY_ASSIGNED_CONTEXT((#600))
GLOBAL_UNIT_ASSIGNED_CONTEXT((#603,#605,#606))
REPRESENTATION_CONTEXT('','3D')
);
#603=(
LENGTH_UNIT()
NAMED_UNIT(*)
SI_UNIT(.MILLI.,.METRE.)
);
#604=(
LENGTH_UNIT()
NAMED_UNIT(*)
SI_UNIT(.CENTI.,.METRE.)
);
#605=(
NAMED_UNIT(*)
PLANE_ANGLE_UNIT()
SI_UNIT($,.RADIAN.)
);
#606=(
NAMED_UNIT(*)
SI_UNIT($,.STERADIAN.)
SOLID_ANGLE_UNIT()
);
#607=SHAPE_DEFINITION_REPRESENTATION(#608,#609);
#608=PRODUCT_DEFINITION_SHAPE('',$,#611);
#609=SHAPE_REPRESENTATION('',(#363),#601);
#610=PRODUCT_DEFINITION_CONTEXT('part definition',#615,'design');
#611=PRODUCT_DEFINITION('psu_alignment_plate','psu_alignment_plate',#612,
#610);
#612=PRODUCT_DEFINITION_FORMATION('',$,#617);
#613=PRODUCT_RELATED_PRODUCT_CATEGORY('psu_alignment_plate',
'psu_alignment_plate',(#617));
#614=APPLICATION_PROTOCOL_DEFINITION('international standard',
'ap242_managed_model_based_3d_engineering',2011,#615);
#615=APPLICATION_CONTEXT('Managed model based 3d engineering');
#616=PRODUCT_CONTEXT('part definition',#615,'mechanical');
#617=PRODUCT('psu_alignment_plate','psu_alignment_plate',$,(#616));
#618=PRESENTATION_STYLE_ASSIGNMENT((#622));
#619=PRESENTATION_STYLE_ASSIGNMENT((#623));
#620=PRESENTATION_STYLE_ASSIGNMENT((NULL_STYLE(.NULL.)));
#621=PRESENTATION_STYLE_ASSIGNMENT((NULL_STYLE(.NULL.)));
#622=SURFACE_STYLE_USAGE(.BOTH.,#626);
#623=SURFACE_STYLE_USAGE(.BOTH.,#627);
#624=SURFACE_STYLE_RENDERING_WITH_PROPERTIES($,#634,(#625));
#625=SURFACE_STYLE_TRANSPARENT(0.);
#626=SURFACE_SIDE_STYLE('',(#628,#624));
#627=SURFACE_SIDE_STYLE('',(#629));
#628=SURFACE_STYLE_FILL_AREA(#630);
#629=SURFACE_STYLE_FILL_AREA(#631);
#630=FILL_AREA_STYLE('',(#632));
#631=FILL_AREA_STYLE('',(#633));
#632=FILL_AREA_STYLE_COLOUR('',#634);
#633=FILL_AREA_STYLE_COLOUR('',#635);
#634=COLOUR_RGB('',0.749019607843137,0.749019607843137,0.749019607843137);
#635=COLOUR_RGB('',0.,0.,0.);
ENDSEC;
END-ISO-10303-21;
